The Stache/Tabs

From JoCopedia
Jump to: navigation, search



This transcription is based on the recording of the Somerville, MA concert on 07/23/10. I apologize for the lack of rhythm markers. This one is a little syncopated so your best bet is to listen to the recording while looking at this to get the rhythm.

Timing and E7 corrections added by Kethrook (talk) 03:41, 15 November 2013 (EST)

Chords
Am    x02210
E7    02010x
E7(2) xx2434
C     x32010
Cmaj7 x32000
Aadd2 x07600
F     133211
D/F#  2x023x
G     320033

[Intro]
 Am            E7 (let ring)         Am        E7(2)
 1 & 2 & 3 & 4 & 1 & 2 & 3 & 4 & 1 & 2 & 3 & 4 & 1 & 2 & 3 & 4 & 
 ----------------------------------------------4-------------4--
(1)--1---0-1---0-------------0-------1---0-1---3-------------3--
(2)--2---2-2---1-------------1-------2---2-2---4-------------4--
(2)--2---2-2---0-------------0-------2---2-2---2-------------2--
(0)--0---0-0---2-------------2-------0---0-0--------------------
 ---------------------------------------------------------------

[Verse-riff]
1 & 2 & 3 & 4 & 1 & 2 & 3 & 4 & 1 & 2 & 3 & 4 & 1 & 2 & 3 & 4 & 
---------------------------------------------------------------
---------------------------------------------------------------
---------------------------------------------------------------
----------------------------2-1-0-----0------------------------
0-----3-------3-------3-------------------------2-----0---0-2-3
--------2-------1-------0-0-------------1-----1---------4------

1 & 2 & 3 & 4 & 1 & 2 & 3 & 4 & 1 & 2 & 3 & 4 & 1 & 2 & 3 & 4 & 
---------------------------------------------------------------
---------------------------------------------------------------
---------------------------------------------------------------
----------------------------2-1-0-----0------------------------
0-----3-------3-------3-------------------------2-----0-----0-2
--------2-------1-------0-0-------------1-----1---------3-3----

[Intro]

[Verse-riff]
In the bag was a razor made for delicate skin
Shaved the peach fuzz, but only on my cheeks and chin

C                   CMaj7                    Aadd2
Now I'm rockin' the stache (I'm rockin' the stache)
Aadd2
Everyday you can watch it grow
C                   CMaj7                    Aadd2
Now I'm rockin' the stache (I'm rockin' the stache)
                            F
All this time finally you know
              D/F# G            E7
What lips are for, no one can ignore the stache

[Intro]

[Verse-riff]
It's a big school, I think about if Tom went here
We'd be so cool, double dating at the prom next year

C                   CMaj7                    Aadd2
We'd be rockin' the stache (I'm rockin' the stache)
Aadd2
Tender hearts, breaking one by one
C                   CMaj7                    Aadd2
We'd be rockin' the stache (I'm rockin' the stache)
                                     F
Ladies please, there's room for everyone
            D/F# G              E7
Who wants a try, no one dares deny the stache

[Intro]

[Verse-riff]
Men of action all that matters is the bottom line
Grow a nice one and get ready for your time to shine

C                   CMaj7                    Aadd2
Keep on rockin' the stache (I'm rockin' the stache)
Aadd2
Strain the world, let the good stuff in
C                   CMaj7                    Aadd2
Keep on rockin' the stache (I'm rockin' the stache)
                                  F
Make *your stand, celebrate the skin
             D/F#    G            E7
Beneath your nose, ever grander grows, the stache

[Intro]
[End on Am]

Personal tools